ISO-10303-21;
HEADER;
/* Generated by software containing ST-Developer
 * from STEP Tools, Inc. (www.steptools.com) 
 */

FILE_DESCRIPTION(
/* description */ (''),
/* implementation_level */ '2;1');

FILE_NAME(
/* name */ '',
/* time_stamp */ '2023-10-09T11:22:45+07:00',
/* author */ ('zeta-09'),
/* organization */ (''),
/* preprocessor_version */ 'ST-DEVELOPER v19.2',
/* originating_system */ 'Autodesk Inventor 2024',
/* authorisation */ '');

FILE_SCHEMA (('AUTOMOTIVE_DESIGN { 1 0 10303 214 3 1 1 }'));
ENDSEC;

DATA;
#10=MECHANICAL_DESIGN_GEOMETRIC_PRESENTATION_REPRESENTATION('',(#206,#207,
#208,#209,#210,#211,#212,#213,#214,#215,#216,#217,#218,#219),#477);
#11=SHAPE_REPRESENTATION_RELATIONSHIP('SRR','None',#484,#12);
#12=ADVANCED_BREP_SHAPE_REPRESENTATION('',(#13),#476);
#13=MANIFOLD_SOLID_BREP('\X2\04220432043504400434043E0435\X0\ \X2\04420435043B043E\X0\1',
#234);
#14=(
BOUNDED_CURVE()
B_SPLINE_CURVE(2,(#471,#472,#473),.UNSPECIFIED.,.F.,.F.)
B_SPLINE_CURVE_WITH_KNOTS((3,3),(-1.38702779623481,-1.29946373171998),
 .UNSPECIFIED.)
CURVE()
GEOMETRIC_REPRESENTATION_ITEM()
RATIONAL_B_SPLINE_CURVE((0.996509478781103,0.997297525926628,1.))
REPRESENTATION_ITEM('')
);
#15=(
BOUNDED_SURFACE()
B_SPLINE_SURFACE(2,2,((#444,#445,#446,#447,#448,#449,#450,#451,#452),(#453,
#454,#455,#456,#457,#458,#459,#460,#461),(#462,#463,#464,#465,#466,#467,
#468,#469,#470)),.UNSPECIFIED.,.F.,.T.,.F.)
B_SPLINE_SURFACE_WITH_KNOTS((3,3),(3,2,2,2,3),(1.29946373171998,1.54668091266142),
(-3.14159265358979,-1.5707963267949,0.,1.5707963267949,3.14159265358979),
 .UNSPECIFIED.)
GEOMETRIC_REPRESENTATION_ITEM()
RATIONAL_B_SPLINE_SURFACE(((1.,0.707106781186548,1.,0.707106781186548,1.,
0.707106781186548,1.,0.707106781186548,1.),(0.992370180328104,0.701711683957319,
0.992370180328104,0.701711683957319,0.992370180328104,0.701711683957319,
0.992370180328104,0.701711683957319,0.992370180328104),(1.,0.707106781186548,
1.,0.707106781186548,1.,0.707106781186548,1.,0.707106781186548,1.)))
REPRESENTATION_ITEM('')
SURFACE()
);
#16=CONICAL_SURFACE('',#274,8.25,0.785398163397446);
#17=CONICAL_SURFACE('',#278,9.575,0.785398163397448);
#18=CONICAL_SURFACE('',#284,9.575,0.785398163397448);
#19=B_SPLINE_CURVE_WITH_KNOTS('',3,(#382,#383,#384,#385,#386,#387),
 .UNSPECIFIED.,.F.,.F.,(4,2,4),(11.4312816937087,12.142545904786,12.8538101158633),
 .UNSPECIFIED.);
#20=B_SPLINE_CURVE_WITH_KNOTS('',3,(#392,#393,#394,#395,#396,#397),
 .UNSPECIFIED.,.F.,.F.,(4,2,4),(11.4312816937087,12.142545904786,12.8538101158633),
 .UNSPECIFIED.);
#21=B_SPLINE_CURVE_WITH_KNOTS('',3,(#401,#402,#403,#404,#405,#406),
 .UNSPECIFIED.,.F.,.F.,(4,2,4),(-0.200084509343678,-0.129468501430512,-0.100031092032882),
 .UNSPECIFIED.);
#22=B_SPLINE_CURVE_WITH_KNOTS('',3,(#407,#408,#409,#410,#411,#412),
 .UNSPECIFIED.,.F.,.F.,(4,2,4),(-0.200094313850636,-0.103395629091261,0.),
 .UNSPECIFIED.);
#23=B_SPLINE_CURVE_WITH_KNOTS('',3,(#413,#414,#415,#416),.UNSPECIFIED.,
 .F.,.F.,(4,4),(-0.100031092032882,0.),.UNSPECIFIED.);
#24=LINE('',#375,#30);
#25=LINE('',#420,#31);
#26=LINE('',#429,#32);
#27=LINE('',#435,#33);
#28=LINE('',#437,#34);
#29=LINE('',#443,#35);
#30=VECTOR('',#310,9.15);
#31=VECTOR('',#329,8.25);
#32=VECTOR('',#340,9.575);
#33=VECTOR('',#347,10.);
#34=VECTOR('',#350,9.575);
#35=VECTOR('',#357,11.);
#36=CYLINDRICAL_SURFACE('',#266,9.15);
#37=CYLINDRICAL_SURFACE('',#273,35.2040689407374);
#38=CYLINDRICAL_SURFACE('',#281,10.);
#39=CYLINDRICAL_SURFACE('',#285,11.);
#40=TOROIDAL_SURFACE('',#262,9.9,0.75);
#41=FACE_BOUND('',#58,.T.);
#42=FACE_BOUND('',#67,.T.);
#43=FACE_OUTER_BOUND('',#57,.T.);
#44=FACE_OUTER_BOUND('',#59,.T.);
#45=FACE_OUTER_BOUND('',#60,.T.);
#46=FACE_OUTER_BOUND('',#61,.T.);
#47=FACE_OUTER_BOUND('',#62,.T.);
#48=FACE_OUTER_BOUND('',#63,.T.);
#49=FACE_OUTER_BOUND('',#64,.T.);
#50=FACE_OUTER_BOUND('',#65,.T.);
#51=FACE_OUTER_BOUND('',#66,.T.);
#52=FACE_OUTER_BOUND('',#68,.T.);
#53=FACE_OUTER_BOUND('',#69,.T.);
#54=FACE_OUTER_BOUND('',#70,.T.);
#55=FACE_OUTER_BOUND('',#71,.T.);
#56=FACE_OUTER_BOUND('',#72,.T.);
#57=EDGE_LOOP('',(#141));
#58=EDGE_LOOP('',(#142));
#59=EDGE_LOOP('',(#143));
#60=EDGE_LOOP('',(#144,#145,#146,#147,#148));
#61=EDGE_LOOP('',(#149,#150,#151,#152,#153,#154));
#62=EDGE_LOOP('',(#155,#156));
#63=EDGE_LOOP('',(#157,#158));
#64=EDGE_LOOP('',(#159,#160,#161,#162,#163));
#65=EDGE_LOOP('',(#164,#165,#166,#167));
#66=EDGE_LOOP('',(#168));
#67=EDGE_LOOP('',(#169));
#68=EDGE_LOOP('',(#170,#171,#172,#173,#174));
#69=EDGE_LOOP('',(#175,#176,#177,#178,#179,#180));
#70=EDGE_LOOP('',(#181,#182,#183,#184,#185,#186));
#71=EDGE_LOOP('',(#187,#188,#189,#190,#191));
#72=EDGE_LOOP('',(#192,#193,#194,#195,#196,#197,#198,#199,#200));
#73=CIRCLE('',#258,11.);
#74=CIRCLE('',#259,10.6071067811865);
#75=CIRCLE('',#261,8.);
#76=CIRCLE('',#263,9.15);
#77=CIRCLE('',#264,0.75);
#78=CIRCLE('',#265,9.15);
#79=CIRCLE('',#267,9.15);
#80=CIRCLE('',#268,9.15);
#81=CIRCLE('',#270,35.2040689407374);
#82=CIRCLE('',#272,35.2040689407374);
#83=CIRCLE('',#275,8.5);
#84=CIRCLE('',#277,9.15);
#85=CIRCLE('',#279,10.);
#86=CIRCLE('',#280,10.);
#87=CIRCLE('',#282,10.);
#88=CIRCLE('',#283,10.);
#89=CIRCLE('',#286,11.);
#90=CIRCLE('',#287,11.);
#91=VERTEX_POINT('',#360);
#92=VERTEX_POINT('',#362);
#93=VERTEX_POINT('',#365);
#94=VERTEX_POINT('',#368);
#95=VERTEX_POINT('',#369);
#96=VERTEX_POINT('',#374);
#97=VERTEX_POINT('',#376);
#98=VERTEX_POINT('',#380);
#99=VERTEX_POINT('',#381);
#100=VERTEX_POINT('',#390);
#101=VERTEX_POINT('',#391);
#102=VERTEX_POINT('',#400);
#103=VERTEX_POINT('',#418);
#104=VERTEX_POINT('',#422);
#105=VERTEX_POINT('',#425);
#106=VERTEX_POINT('',#426);
#107=VERTEX_POINT('',#431);
#108=VERTEX_POINT('',#432);
#109=VERTEX_POINT('',#439);
#110=VERTEX_POINT('',#440);
#111=EDGE_CURVE('',#91,#91,#73,.T.);
#112=EDGE_CURVE('',#92,#92,#74,.T.);
#113=EDGE_CURVE('',#93,#93,#75,.T.);
#114=EDGE_CURVE('',#94,#95,#76,.T.);
#115=EDGE_CURVE('',#95,#92,#77,.T.);
#116=EDGE_CURVE('',#95,#94,#78,.T.);
#117=EDGE_CURVE('',#94,#96,#24,.T.);
#118=EDGE_CURVE('',#96,#97,#79,.T.);
#119=EDGE_CURVE('',#97,#96,#80,.T.);
#120=EDGE_CURVE('',#98,#99,#19,.T.);
#121=EDGE_CURVE('',#99,#98,#81,.T.);
#122=EDGE_CURVE('',#100,#101,#20,.T.);
#123=EDGE_CURVE('',#101,#100,#82,.T.);
#124=EDGE_CURVE('',#101,#102,#21,.T.);
#125=EDGE_CURVE('',#99,#100,#22,.T.);
#126=EDGE_CURVE('',#102,#98,#23,.T.);
#127=EDGE_CURVE('',#103,#103,#83,.T.);
#128=EDGE_CURVE('',#103,#93,#25,.T.);
#129=EDGE_CURVE('',#104,#104,#84,.T.);
#130=EDGE_CURVE('',#105,#106,#85,.T.);
#131=EDGE_CURVE('',#106,#105,#86,.T.);
#132=EDGE_CURVE('',#105,#104,#26,.T.);
#133=EDGE_CURVE('',#107,#108,#87,.T.);
#134=EDGE_CURVE('',#108,#107,#88,.T.);
#135=EDGE_CURVE('',#108,#106,#27,.T.);
#136=EDGE_CURVE('',#97,#107,#28,.T.);
#137=EDGE_CURVE('',#109,#110,#89,.T.);
#138=EDGE_CURVE('',#110,#109,#90,.T.);
#139=EDGE_CURVE('',#110,#91,#29,.T.);
#140=EDGE_CURVE('',#102,#109,#14,.T.);
#141=ORIENTED_EDGE('',*,*,#111,.F.);
#142=ORIENTED_EDGE('',*,*,#112,.T.);
#143=ORIENTED_EDGE('',*,*,#113,.F.);
#144=ORIENTED_EDGE('',*,*,#114,.T.);
#145=ORIENTED_EDGE('',*,*,#115,.T.);
#146=ORIENTED_EDGE('',*,*,#112,.F.);
#147=ORIENTED_EDGE('',*,*,#115,.F.);
#148=ORIENTED_EDGE('',*,*,#116,.T.);
#149=ORIENTED_EDGE('',*,*,#114,.F.);
#150=ORIENTED_EDGE('',*,*,#117,.T.);
#151=ORIENTED_EDGE('',*,*,#118,.T.);
#152=ORIENTED_EDGE('',*,*,#119,.T.);
#153=ORIENTED_EDGE('',*,*,#117,.F.);
#154=ORIENTED_EDGE('',*,*,#116,.F.);
#155=ORIENTED_EDGE('',*,*,#120,.F.);
#156=ORIENTED_EDGE('',*,*,#121,.F.);
#157=ORIENTED_EDGE('',*,*,#122,.F.);
#158=ORIENTED_EDGE('',*,*,#123,.F.);
#159=ORIENTED_EDGE('',*,*,#124,.F.);
#160=ORIENTED_EDGE('',*,*,#123,.T.);
#161=ORIENTED_EDGE('',*,*,#125,.F.);
#162=ORIENTED_EDGE('',*,*,#121,.T.);
#163=ORIENTED_EDGE('',*,*,#126,.F.);
#164=ORIENTED_EDGE('',*,*,#127,.T.);
#165=ORIENTED_EDGE('',*,*,#128,.T.);
#166=ORIENTED_EDGE('',*,*,#113,.T.);
#167=ORIENTED_EDGE('',*,*,#128,.F.);
#168=ORIENTED_EDGE('',*,*,#129,.F.);
#169=ORIENTED_EDGE('',*,*,#127,.F.);
#170=ORIENTED_EDGE('',*,*,#130,.T.);
#171=ORIENTED_EDGE('',*,*,#131,.T.);
#172=ORIENTED_EDGE('',*,*,#132,.T.);
#173=ORIENTED_EDGE('',*,*,#129,.T.);
#174=ORIENTED_EDGE('',*,*,#132,.F.);
#175=ORIENTED_EDGE('',*,*,#133,.F.);
#176=ORIENTED_EDGE('',*,*,#134,.F.);
#177=ORIENTED_EDGE('',*,*,#135,.T.);
#178=ORIENTED_EDGE('',*,*,#130,.F.);
#179=ORIENTED_EDGE('',*,*,#131,.F.);
#180=ORIENTED_EDGE('',*,*,#135,.F.);
#181=ORIENTED_EDGE('',*,*,#119,.F.);
#182=ORIENTED_EDGE('',*,*,#136,.T.);
#183=ORIENTED_EDGE('',*,*,#133,.T.);
#184=ORIENTED_EDGE('',*,*,#134,.T.);
#185=ORIENTED_EDGE('',*,*,#136,.F.);
#186=ORIENTED_EDGE('',*,*,#118,.F.);
#187=ORIENTED_EDGE('',*,*,#137,.F.);
#188=ORIENTED_EDGE('',*,*,#138,.F.);
#189=ORIENTED_EDGE('',*,*,#139,.T.);
#190=ORIENTED_EDGE('',*,*,#111,.T.);
#191=ORIENTED_EDGE('',*,*,#139,.F.);
#192=ORIENTED_EDGE('',*,*,#122,.T.);
#193=ORIENTED_EDGE('',*,*,#124,.T.);
#194=ORIENTED_EDGE('',*,*,#140,.T.);
#195=ORIENTED_EDGE('',*,*,#137,.T.);
#196=ORIENTED_EDGE('',*,*,#138,.T.);
#197=ORIENTED_EDGE('',*,*,#140,.F.);
#198=ORIENTED_EDGE('',*,*,#126,.T.);
#199=ORIENTED_EDGE('',*,*,#120,.T.);
#200=ORIENTED_EDGE('',*,*,#125,.T.);
#201=PLANE('',#257);
#202=PLANE('',#260);
#203=PLANE('',#269);
#204=PLANE('',#271);
#205=PLANE('',#276);
#206=STYLED_ITEM('',(#494),#220);
#207=STYLED_ITEM('',(#495),#222);
#208=STYLED_ITEM('',(#494),#223);
#209=STYLED_ITEM('',(#494),#224);
#210=STYLED_ITEM('',(#494),#225);
#211=STYLED_ITEM('',(#494),#226);
#212=STYLED_ITEM('',(#494),#227);
#213=STYLED_ITEM('',(#494),#228);
#214=STYLED_ITEM('',(#494),#229);
#215=STYLED_ITEM('',(#494),#230);
#216=STYLED_ITEM('',(#494),#231);
#217=STYLED_ITEM('',(#494),#232);
#218=STYLED_ITEM('',(#494),#233);
#219=STYLED_ITEM('',(#493),#13);
#220=ADVANCED_FACE('',(#43,#41),#201,.F.);
#221=ADVANCED_FACE('',(#44),#202,.F.);
#222=ADVANCED_FACE('',(#45),#40,.T.);
#223=ADVANCED_FACE('',(#46),#36,.T.);
#224=ADVANCED_FACE('',(#47),#203,.F.);
#225=ADVANCED_FACE('',(#48),#204,.T.);
#226=ADVANCED_FACE('',(#49),#37,.F.);
#227=ADVANCED_FACE('',(#50),#16,.F.);
#228=ADVANCED_FACE('',(#51,#42),#205,.T.);
#229=ADVANCED_FACE('',(#52),#17,.T.);
#230=ADVANCED_FACE('',(#53),#38,.T.);
#231=ADVANCED_FACE('',(#54),#18,.T.);
#232=ADVANCED_FACE('',(#55),#39,.T.);
#233=ADVANCED_FACE('',(#56),#15,.F.);
#234=CLOSED_SHELL('',(#220,#221,#222,#223,#224,#225,#226,#227,#228,#229,
#230,#231,#232,#233));
#235=DERIVED_UNIT_ELEMENT(#238,1.);
#236=DERIVED_UNIT_ELEMENT(#479,-3.);
#237=DIMENSIONAL_EXPONENTS(0.,1.,0.,0.,0.,0.,0.);
#238=(
CONVERSION_BASED_UNIT('gram',#240)
MASS_UNIT()
NAMED_UNIT(#237)
);
#239=(
MASS_UNIT()
NAMED_UNIT(*)
SI_UNIT(.KILO.,.GRAM.)
);
#240=MASS_MEASURE_WITH_UNIT(MASS_MEASURE(0.001),#239);
#241=DERIVED_UNIT((#235,#236));
#242=MEASURE_REPRESENTATION_ITEM('density measure',
POSITIVE_RATIO_MEASURE(1.),#241);
#243=PROPERTY_DEFINITION_REPRESENTATION(#248,#245);
#244=PROPERTY_DEFINITION_REPRESENTATION(#249,#246);
#245=REPRESENTATION('material name',(#247),#476);
#246=REPRESENTATION('density',(#242),#476);
#247=DESCRIPTIVE_REPRESENTATION_ITEM('\X2\04220438043F043E0432044B0435\X0\',
'\X2\04220438043F043E0432044B0435\X0\');
#248=PROPERTY_DEFINITION('material property','material name',#486);
#249=PROPERTY_DEFINITION('material property','density of part',#486);
#250=DATE_TIME_ROLE('creation_date');
#251=APPLIED_DATE_AND_TIME_ASSIGNMENT(#252,#250,(#486));
#252=DATE_AND_TIME(#253,#254);
#253=CALENDAR_DATE(2023,9,10);
#254=LOCAL_TIME(0,0,0.,#255);
#255=COORDINATED_UNIVERSAL_TIME_OFFSET(0,0,.BEHIND.);
#256=AXIS2_PLACEMENT_3D('',#358,#288,#289);
#257=AXIS2_PLACEMENT_3D('',#359,#290,#291);
#258=AXIS2_PLACEMENT_3D('',#361,#292,#293);
#259=AXIS2_PLACEMENT_3D('',#363,#294,#295);
#260=AXIS2_PLACEMENT_3D('',#364,#296,#297);
#261=AXIS2_PLACEMENT_3D('',#366,#298,#299);
#262=AXIS2_PLACEMENT_3D('',#367,#300,#301);
#263=AXIS2_PLACEMENT_3D('',#370,#302,#303);
#264=AXIS2_PLACEMENT_3D('',#371,#304,#305);
#265=AXIS2_PLACEMENT_3D('',#372,#306,#307);
#266=AXIS2_PLACEMENT_3D('',#373,#308,#309);
#267=AXIS2_PLACEMENT_3D('',#377,#311,#312);
#268=AXIS2_PLACEMENT_3D('',#378,#313,#314);
#269=AXIS2_PLACEMENT_3D('',#379,#315,#316);
#270=AXIS2_PLACEMENT_3D('',#388,#317,#318);
#271=AXIS2_PLACEMENT_3D('',#389,#319,#320);
#272=AXIS2_PLACEMENT_3D('',#398,#321,#322);
#273=AXIS2_PLACEMENT_3D('',#399,#323,#324);
#274=AXIS2_PLACEMENT_3D('',#417,#325,#326);
#275=AXIS2_PLACEMENT_3D('',#419,#327,#328);
#276=AXIS2_PLACEMENT_3D('',#421,#330,#331);
#277=AXIS2_PLACEMENT_3D('',#423,#332,#333);
#278=AXIS2_PLACEMENT_3D('',#424,#334,#335);
#279=AXIS2_PLACEMENT_3D('',#427,#336,#337);
#280=AXIS2_PLACEMENT_3D('',#428,#338,#339);
#281=AXIS2_PLACEMENT_3D('',#430,#341,#342);
#282=AXIS2_PLACEMENT_3D('',#433,#343,#344);
#283=AXIS2_PLACEMENT_3D('',#434,#345,#346);
#284=AXIS2_PLACEMENT_3D('',#436,#348,#349);
#285=AXIS2_PLACEMENT_3D('',#438,#351,#352);
#286=AXIS2_PLACEMENT_3D('',#441,#353,#354);
#287=AXIS2_PLACEMENT_3D('',#442,#355,#356);
#288=DIRECTION('axis',(0.,0.,1.));
#289=DIRECTION('refdir',(1.,0.,0.));
#290=DIRECTION('center_axis',(0.,1.,0.));
#291=DIRECTION('ref_axis',(0.,0.,1.));
#292=DIRECTION('center_axis',(0.,1.,0.));
#293=DIRECTION('ref_axis',(1.,0.,0.));
#294=DIRECTION('center_axis',(-4.12338959683817E-16,1.,0.));
#295=DIRECTION('ref_axis',(0.,0.,-1.));
#296=DIRECTION('center_axis',(0.,1.,0.));
#297=DIRECTION('ref_axis',(0.,0.,1.));
#298=DIRECTION('center_axis',(0.,1.,0.));
#299=DIRECTION('ref_axis',(1.,0.,0.));
#300=DIRECTION('center_axis',(8.24677919367635E-16,-1.,0.));
#301=DIRECTION('ref_axis',(-1.00222386467101E-13,0.,-1.));
#302=DIRECTION('center_axis',(0.,1.,0.));
#303=DIRECTION('ref_axis',(-1.,0.,0.));
#304=DIRECTION('center_axis',(-1.,-8.24677919367635E-16,1.001025032297E-13));
#305=DIRECTION('ref_axis',(1.001025032297E-13,0.,1.));
#306=DIRECTION('center_axis',(0.,1.,0.));
#307=DIRECTION('ref_axis',(-1.,0.,0.));
#308=DIRECTION('center_axis',(0.,1.,0.));
#309=DIRECTION('ref_axis',(-1.,0.,0.));
#310=DIRECTION('',(0.,-1.,0.));
#311=DIRECTION('center_axis',(0.,1.,0.));
#312=DIRECTION('ref_axis',(1.,0.,0.));
#313=DIRECTION('center_axis',(0.,1.,0.));
#314=DIRECTION('ref_axis',(1.,0.,0.));
#315=DIRECTION('center_axis',(1.,0.,0.));
#316=DIRECTION('ref_axis',(0.,0.,-1.));
#317=DIRECTION('center_axis',(1.,0.,0.));
#318=DIRECTION('ref_axis',(0.,1.,0.));
#319=DIRECTION('center_axis',(1.,0.,0.));
#320=DIRECTION('ref_axis',(0.,0.,-1.));
#321=DIRECTION('center_axis',(-1.,0.,0.));
#322=DIRECTION('ref_axis',(0.,1.,0.));
#323=DIRECTION('center_axis',(1.,0.,0.));
#324=DIRECTION('ref_axis',(0.,-0.999999997898961,-6.48234349603024E-5));
#325=DIRECTION('center_axis',(0.,-1.,0.));
#326=DIRECTION('ref_axis',(1.,0.,0.));
#327=DIRECTION('center_axis',(0.,-1.,0.));
#328=DIRECTION('ref_axis',(1.,0.,0.));
#329=DIRECTION('',(0.707106781186546,0.707106781186549,8.65956056235491E-17));
#330=DIRECTION('center_axis',(0.,-1.,0.));
#331=DIRECTION('ref_axis',(0.,0.,-1.));
#332=DIRECTION('center_axis',(0.,1.,0.));
#333=DIRECTION('ref_axis',(1.,0.,0.));
#334=DIRECTION('center_axis',(0.,1.,0.));
#335=DIRECTION('ref_axis',(1.,0.,0.));
#336=DIRECTION('center_axis',(0.,-1.,0.));
#337=DIRECTION('ref_axis',(1.,0.,0.));
#338=DIRECTION('center_axis',(0.,-1.,0.));
#339=DIRECTION('ref_axis',(1.,0.,0.));
#340=DIRECTION('',(0.707106781186547,-0.707106781186548,-8.65956056235493E-17));
#341=DIRECTION('center_axis',(0.,1.,0.));
#342=DIRECTION('ref_axis',(-1.,0.,0.));
#343=DIRECTION('center_axis',(0.,1.,0.));
#344=DIRECTION('ref_axis',(1.,0.,0.));
#345=DIRECTION('center_axis',(0.,1.,0.));
#346=DIRECTION('ref_axis',(1.,0.,0.));
#347=DIRECTION('',(0.,-1.,0.));
#348=DIRECTION('center_axis',(0.,-1.,0.));
#349=DIRECTION('ref_axis',(1.,0.,0.));
#350=DIRECTION('',(-0.707106781186547,-0.707106781186548,8.65956056235493E-17));
#351=DIRECTION('center_axis',(0.,1.,0.));
#352=DIRECTION('ref_axis',(-1.,0.,0.));
#353=DIRECTION('center_axis',(0.,1.,0.));
#354=DIRECTION('ref_axis',(1.,0.,0.));
#355=DIRECTION('center_axis',(0.,1.,0.));
#356=DIRECTION('ref_axis',(1.,0.,0.));
#357=DIRECTION('',(0.,-1.,0.));
#358=CARTESIAN_POINT('',(0.,0.,0.));
#359=CARTESIAN_POINT('Origin',(-1.29716978788849,2.16644732887241,0.));
#360=CARTESIAN_POINT('',(9.70283021211151,2.16644732887241,-1.34711147906209E-15));
#361=CARTESIAN_POINT('Origin',(-1.29716978788849,2.16644732887241,0.));
#362=CARTESIAN_POINT('',(-1.29716978788849,2.16644732887241,10.6071067811865));
#363=CARTESIAN_POINT('Origin',(-1.29716978788849,2.16644732887241,0.));
#364=CARTESIAN_POINT('Origin',(-1.29716978788849,-3.83355267112759,0.));
#365=CARTESIAN_POINT('',(-9.2971697878885,-3.83355267112759,9.79717439317883E-16));
#366=CARTESIAN_POINT('Origin',(-1.29716978788849,-3.83355267112759,0.));
#367=CARTESIAN_POINT('Origin',(-1.29716978788849,1.91644732887233,0.));
#368=CARTESIAN_POINT('',(7.85283021211151,1.91644732887233,-1.12055182121983E-15));
#369=CARTESIAN_POINT('',(-1.29716978788758,1.91644732887233,9.15));
#370=CARTESIAN_POINT('Origin',(-1.29716978788849,1.91644732887233,0.));
#371=CARTESIAN_POINT('Origin',(-1.2971697878875,1.91644732887233,9.9));
#372=CARTESIAN_POINT('Origin',(-1.29716978788849,1.91644732887233,0.));
#373=CARTESIAN_POINT('Origin',(-1.29716978788849,1.66644732887241,0.));
#374=CARTESIAN_POINT('',(7.85283021211151,0.666447328872414,-1.12055182121983E-15));
#375=CARTESIAN_POINT('',(7.85283021211151,1.66644732887241,-1.12055182121983E-15));
#376=CARTESIAN_POINT('',(-10.4471697878885,0.666447328872414,0.));
#377=CARTESIAN_POINT('Origin',(-1.29716978788849,0.666447328872414,0.));
#378=CARTESIAN_POINT('Origin',(-1.29716978788849,0.666447328872414,0.));
#379=CARTESIAN_POINT('Origin',(-0.297169787888493,38.8705144354878,0.));
#380=CARTESIAN_POINT('',(-0.297169787888493,4.4690894442692,-7.47451861712519));
#381=CARTESIAN_POINT('',(-0.297169787888493,4.4690894442692,7.47451861712519));
#382=CARTESIAN_POINT('Ctrl Pts',(-0.297169787888493,4.4690894442692,-7.47451861712519));
#383=CARTESIAN_POINT('Ctrl Pts',(-0.297169787888493,4.93904728724778,-4.93667933608196));
#384=CARTESIAN_POINT('Ctrl Pts',(-0.297169787888493,5.15452764089345,-2.37088070359103));
#385=CARTESIAN_POINT('Ctrl Pts',(-0.297169787888493,5.15452764089345,2.37088070359102));
#386=CARTESIAN_POINT('Ctrl Pts',(-0.297169787888493,4.93904728724778,4.93667933608196));
#387=CARTESIAN_POINT('Ctrl Pts',(-0.297169787888493,4.4690894442692,7.47451861712519));
#388=CARTESIAN_POINT('Origin',(-0.297169787888493,38.8705144354878,0.));
#389=CARTESIAN_POINT('Origin',(-2.29716978788849,38.8705144354878,0.));
#390=CARTESIAN_POINT('',(-2.29716978788849,4.4690894442692,7.47451861712519));
#391=CARTESIAN_POINT('',(-2.29716978788849,4.4690894442692,-7.47451861712519));
#392=CARTESIAN_POINT('Ctrl Pts',(-2.29716978788849,4.4690894442692,7.47451861712519));
#393=CARTESIAN_POINT('Ctrl Pts',(-2.29716978788849,4.93904728724778,4.93667933608196));
#394=CARTESIAN_POINT('Ctrl Pts',(-2.29716978788849,5.15452764089345,2.37088070359102));
#395=CARTESIAN_POINT('Ctrl Pts',(-2.29716978788849,5.15452764089345,-2.37088070359103));
#396=CARTESIAN_POINT('Ctrl Pts',(-2.29716978788849,4.93904728724778,-4.93667933608196));
#397=CARTESIAN_POINT('Ctrl Pts',(-2.29716978788849,4.4690894442692,-7.47451861712519));
#398=CARTESIAN_POINT('Origin',(-2.29716978788849,38.8705144354878,0.));
#399=CARTESIAN_POINT('Origin',(-1.29716978788849,38.8705144354878,0.));
#400=CARTESIAN_POINT('',(-1.29716978788849,4.47577706187376,-7.50523224053115));
#401=CARTESIAN_POINT('Ctrl Pts',(-2.29716978788849,4.4690894442692,-7.47451861712518));
#402=CARTESIAN_POINT('Ctrl Pts',(-2.06224732575124,4.47223159377439,-7.48898034048837));
#403=CARTESIAN_POINT('Ctrl Pts',(-1.82693040858053,4.47427062941702,-7.49832654183109));
#404=CARTESIAN_POINT('Ctrl Pts',(-1.4934730089902,4.47558372584496,-7.50434639054298));
#405=CARTESIAN_POINT('Ctrl Pts',(-1.3953269464837,4.47577706187376,-7.50523224053115));
#406=CARTESIAN_POINT('Ctrl Pts',(-1.29716978788849,4.47577706187376,-7.50523224053115));
#407=CARTESIAN_POINT('Ctrl Pts',(-0.297169787888494,4.4690894442692,7.47451861712518));
#408=CARTESIAN_POINT('Ctrl Pts',(-0.618861303538357,4.47339215260763,7.49432180522941));
#409=CARTESIAN_POINT('Ctrl Pts',(-0.94133658957135,4.47562511616582,7.50453590532865));
#410=CARTESIAN_POINT('Ctrl Pts',(-1.60832024639342,4.47592399783506,7.5059056172246));
#411=CARTESIAN_POINT('Ctrl Pts',(-1.95319953414531,4.47369013656897,7.49569327453999));
#412=CARTESIAN_POINT('Ctrl Pts',(-2.29716978788849,4.4690894442692,7.47451861712518));
#413=CARTESIAN_POINT('Ctrl Pts',(-1.29716978788849,4.47577706187376,-7.50523224053115));
#414=CARTESIAN_POINT('Ctrl Pts',(-0.963622510256324,4.47577706187376,-7.50523224053115));
#415=CARTESIAN_POINT('Ctrl Pts',(-0.629947105567834,4.4735404281154,-7.4950042423227));
#416=CARTESIAN_POINT('Ctrl Pts',(-0.297169787888494,4.4690894442692,-7.47451861712518));
#417=CARTESIAN_POINT('Origin',(-1.29716978788849,-4.08355267112759,0.));
#418=CARTESIAN_POINT('',(-9.79716978788849,-4.33355267112759,-1.04094977927525E-15));
#419=CARTESIAN_POINT('Origin',(-1.29716978788849,-4.33355267112759,0.));
#420=CARTESIAN_POINT('',(-9.54716978788849,-4.08355267112759,-1.01033360929657E-15));
#421=CARTESIAN_POINT('Origin',(-11.2971697878885,-4.33355267112759,0.));
#422=CARTESIAN_POINT('',(-10.4471697878885,-4.33355267112759,1.12055182121983E-15));
#423=CARTESIAN_POINT('Origin',(-1.29716978788849,-4.33355267112759,0.));
#424=CARTESIAN_POINT('Origin',(-1.29716978788849,-3.90855267112759,0.));
#425=CARTESIAN_POINT('',(-11.2971697878885,-3.48355267112759,-1.22464679914735E-15));
#426=CARTESIAN_POINT('',(8.70283021211151,-3.48355267112759,-1.22464679914735E-15));
#427=CARTESIAN_POINT('Origin',(-1.29716978788849,-3.48355267112759,0.));
#428=CARTESIAN_POINT('Origin',(-1.29716978788849,-3.48355267112759,0.));
#429=CARTESIAN_POINT('',(-10.8721697878885,-3.90855267112759,1.17259931018359E-15));
#430=CARTESIAN_POINT('Origin',(-1.29716978788849,-1.83355267112759,0.));
#431=CARTESIAN_POINT('',(-11.2971697878885,-0.183552671127587,1.22464679914735E-15));
#432=CARTESIAN_POINT('',(8.70283021211151,-0.183552671127587,-1.22464679914735E-15));
#433=CARTESIAN_POINT('Origin',(-1.29716978788849,-0.183552671127587,0.));
#434=CARTESIAN_POINT('Origin',(-1.29716978788849,-0.183552671127587,0.));
#435=CARTESIAN_POINT('',(8.70283021211151,-1.83355267112759,-1.22464679914735E-15));
#436=CARTESIAN_POINT('Origin',(-1.29716978788849,0.241447328872413,0.));
#437=CARTESIAN_POINT('',(-10.8721697878885,0.241447328872413,1.17259931018359E-15));
#438=CARTESIAN_POINT('Origin',(-1.29716978788849,2.91644732887242,0.));
#439=CARTESIAN_POINT('',(-1.29716978788849,3.66644732887242,-11.));
#440=CARTESIAN_POINT('',(9.70283021211151,3.66644732887241,-1.34711147906209E-15));
#441=CARTESIAN_POINT('Origin',(-1.29716978788849,3.66644732887241,0.));
#442=CARTESIAN_POINT('Origin',(-1.29716978788849,3.66644732887241,0.));
#443=CARTESIAN_POINT('',(9.70283021211151,2.91644732887242,-1.34711147906209E-15));
#444=CARTESIAN_POINT('Ctrl Pts',(-1.29716978788849,3.66644732887242,-11.));
#445=CARTESIAN_POINT('Ctrl Pts',(-12.2971697878885,3.66644732887242,-11.));
#446=CARTESIAN_POINT('Ctrl Pts',(-12.2971697878885,3.66644732887242,0.));
#447=CARTESIAN_POINT('Ctrl Pts',(-12.2971697878885,3.66644732887242,11.));
#448=CARTESIAN_POINT('Ctrl Pts',(-1.29716978788849,3.66644732887242,11.));
#449=CARTESIAN_POINT('Ctrl Pts',(9.70283021211151,3.66644732887242,11.));
#450=CARTESIAN_POINT('Ctrl Pts',(9.70283021211151,3.66644732887242,0.));
#451=CARTESIAN_POINT('Ctrl Pts',(9.70283021211151,3.66644732887242,-11.));
#452=CARTESIAN_POINT('Ctrl Pts',(-1.29716978788849,3.66644732887242,-11.));
#453=CARTESIAN_POINT('Ctrl Pts',(-1.29716978788849,5.03169750458753,-6.09244103999526));
#454=CARTESIAN_POINT('Ctrl Pts',(-7.38961082788375,5.03169750458753,-6.09244103999525));
#455=CARTESIAN_POINT('Ctrl Pts',(-7.38961082788375,5.03169750458754,0.));
#456=CARTESIAN_POINT('Ctrl Pts',(-7.38961082788375,5.03169750458754,6.09244103999525));
#457=CARTESIAN_POINT('Ctrl Pts',(-1.29716978788849,5.03169750458754,6.09244103999526));
#458=CARTESIAN_POINT('Ctrl Pts',(4.79527125210676,5.03169750458754,6.09244103999525));
#459=CARTESIAN_POINT('Ctrl Pts',(4.79527125210676,5.03169750458754,0.));
#460=CARTESIAN_POINT('Ctrl Pts',(4.79527125210676,5.03169750458753,-6.09244103999525));
#461=CARTESIAN_POINT('Ctrl Pts',(-1.29716978788849,5.03169750458753,-6.09244103999526));
#462=CARTESIAN_POINT('Ctrl Pts',(-1.29716978788849,5.15452764089345,-0.999999999999998));
#463=CARTESIAN_POINT('Ctrl Pts',(-2.29716978788849,5.15452764089345,-0.999999999999997));
#464=CARTESIAN_POINT('Ctrl Pts',(-2.29716978788849,5.15452764089345,0.));
#465=CARTESIAN_POINT('Ctrl Pts',(-2.29716978788849,5.15452764089345,0.999999999999997));
#466=CARTESIAN_POINT('Ctrl Pts',(-1.29716978788849,5.15452764089345,0.999999999999998));
#467=CARTESIAN_POINT('Ctrl Pts',(-0.297169787888496,5.15452764089345,0.999999999999997));
#468=CARTESIAN_POINT('Ctrl Pts',(-0.297169787888496,5.15452764089345,0.));
#469=CARTESIAN_POINT('Ctrl Pts',(-0.297169787888496,5.15452764089345,-0.999999999999997));
#470=CARTESIAN_POINT('Ctrl Pts',(-1.29716978788849,5.15452764089345,-0.999999999999998));
#471=CARTESIAN_POINT('Ctrl Pts',(-1.29716978788849,4.47577706187165,-7.50523224054247));
#472=CARTESIAN_POINT('Ctrl Pts',(-1.29716978788849,4.14762832585081,-9.2703359756988));
#473=CARTESIAN_POINT('Ctrl Pts',(-1.29716978788849,3.66644732887242,-11.));
#474=UNCERTAINTY_MEASURE_WITH_UNIT(LENGTH_MEASURE(0.01),#478,
'DISTANCE_ACCURACY_VALUE',
'Maximum model space distance between geometric entities at asserted c
onnectivities');
#475=UNCERTAINTY_MEASURE_WITH_UNIT(LENGTH_MEASURE(0.01),#478,
'DISTANCE_ACCURACY_VALUE',
'Maximum model space distance between geometric entities at asserted c
onnectivities');
#476=(
GEOMETRIC_REPRESENTATION_CONTEXT(3)
GLOBAL_UNCERTAINTY_ASSIGNED_CONTEXT((#474))
GLOBAL_UNIT_ASSIGNED_CONTEXT((#478,#480,#481))
REPRESENTATION_CONTEXT('','3D')
);
#477=(
GEOMETRIC_REPRESENTATION_CONTEXT(3)
GLOBAL_UNCERTAINTY_ASSIGNED_CONTEXT((#475))
GLOBAL_UNIT_ASSIGNED_CONTEXT((#478,#480,#481))
REPRESENTATION_CONTEXT('','3D')
);
#478=(
LENGTH_UNIT()
NAMED_UNIT(*)
SI_UNIT(.MILLI.,.METRE.)
);
#479=(
LENGTH_UNIT()
NAMED_UNIT(*)
SI_UNIT(.CENTI.,.METRE.)
);
#480=(
NAMED_UNIT(*)
PLANE_ANGLE_UNIT()
SI_UNIT($,.RADIAN.)
);
#481=(
NAMED_UNIT(*)
SI_UNIT($,.STERADIAN.)
SOLID_ANGLE_UNIT()
);
#482=SHAPE_DEFINITION_REPRESENTATION(#483,#484);
#483=PRODUCT_DEFINITION_SHAPE('',$,#486);
#484=SHAPE_REPRESENTATION('',(#256),#476);
#485=PRODUCT_DEFINITION_CONTEXT('part definition',#490,'design');
#486=PRODUCT_DEFINITION('\X2\0414043504420430043B044C\X0\7',
'\X2\0414043504420430043B044C\X0\7',#487,#485);
#487=PRODUCT_DEFINITION_FORMATION('',$,#492);
#488=PRODUCT_RELATED_PRODUCT_CATEGORY('\X2\0414043504420430043B044C\X0\7',
'\X2\0414043504420430043B044C\X0\7',(#492));
#489=APPLICATION_PROTOCOL_DEFINITION('international standard',
'automotive_design',2009,#490);
#490=APPLICATION_CONTEXT(
'Core Data for Automotive Mechanical Design Process');
#491=PRODUCT_CONTEXT('part definition',#490,'mechanical');
#492=PRODUCT('\X2\0414043504420430043B044C\X0\7','\X2\0414043504420430043B044C\X0\7',
$,(#491));
#493=PRESENTATION_STYLE_ASSIGNMENT((#496));
#494=PRESENTATION_STYLE_ASSIGNMENT((#497));
#495=PRESENTATION_STYLE_ASSIGNMENT((#498));
#496=SURFACE_STYLE_USAGE(.BOTH.,#505);
#497=SURFACE_STYLE_USAGE(.BOTH.,#506);
#498=SURFACE_STYLE_USAGE(.BOTH.,#507);
#499=SURFACE_STYLE_RENDERING_WITH_PROPERTIES($,#517,(#502));
#500=SURFACE_STYLE_RENDERING_WITH_PROPERTIES($,#518,(#503));
#501=SURFACE_STYLE_RENDERING_WITH_PROPERTIES($,#519,(#504));
#502=SURFACE_STYLE_TRANSPARENT(0.);
#503=SURFACE_STYLE_TRANSPARENT(0.);
#504=SURFACE_STYLE_TRANSPARENT(0.);
#505=SURFACE_SIDE_STYLE('',(#508,#499));
#506=SURFACE_SIDE_STYLE('',(#509,#500));
#507=SURFACE_SIDE_STYLE('',(#510,#501));
#508=SURFACE_STYLE_FILL_AREA(#511);
#509=SURFACE_STYLE_FILL_AREA(#512);
#510=SURFACE_STYLE_FILL_AREA(#513);
#511=FILL_AREA_STYLE('',(#514));
#512=FILL_AREA_STYLE('',(#515));
#513=FILL_AREA_STYLE('',(#516));
#514=FILL_AREA_STYLE_COLOUR('',#517);
#515=FILL_AREA_STYLE_COLOUR('',#518);
#516=FILL_AREA_STYLE_COLOUR('',#519);
#517=COLOUR_RGB('',0.749019607843137,0.749019607843137,0.749019607843137);
#518=COLOUR_RGB('',0.968627450980392,0.933333333333333,0.792156862745098);
#519=COLOUR_RGB('',0.250980392156863,0.250980392156863,0.250980392156863);
ENDSEC;
END-ISO-10303-21;
